ShortScale Forum Index www.shortscale.org
Head 'n Neck Above
 
 FAQFAQ   SearchSearch   MemberlistMemberlist   UsergroupsUsergroups   RegisterRegister 
 ProfileProfile   Log in to check your private messagesLog in to check your private messages   Log inLog in 
UploaderUploader   ShortScale WikiBuilder

Something for the weekend - I Got You (I Feel Good) bass tab

 
Post new topic   Reply to topic    ShortScale Forum Index -> Playing Technique, Theory, Recording Tips, and Talk
View previous topic :: View next topic  
Author Message
James
Nutmeg


Joined: 13 Jul 2006
Posts: 10645
Location: Boxingham Palace

PostPosted: Fri May 31, 2013 3:55 pm    Post subject: Something for the weekend - I Got You (I Feel Good) bass tab Reply with quote


Link


It's a beautiful day today and this song is ridiculously fun to play. There are a bunch of versions online but they all seem to have small errors even though it's relatively simple. Using the Lorez recommended tab book and piecing together the rest I've wrote out the tab. You might want to copy it to notepad to make it easier to read.

Code:
Verse
G|----7-6-7-6-7-6-7-----7-5---|
D|--------------------------7-|
A|-5-----------------5--------| x2
E|----------------------------|

G|----------------------------|
D|----5-4-5-4-5-4-5-----5-3---|
A|--------------------------3-|
E|-3-----------------3--------|

G|----7-6-7-6-7-6-7-----7-5---|
D|--------------------------5-|
A|-5-----------------5--------|
E|----------------------------|

G|---------------------5--9--|
D|-7-7--5-5------4--7--------|
A|------------5--------------|
E|---------------------------|

Horn break (no bass but here's the part anyway)
G|----7-5----5-------|
D|---------7---7-----|
A|-5--------------8--|
E|-------------------|

Chorus
G|-----------------|-----------------|
D|-5-5-------------|-5-5-------------|
A|-----8-8-7-7-5-5-|-----8-8-7-7-5-5-|
E|-----------------|-----------------|

G|-----------------|-----------------|
D|-----------------|-----------------|
A|-5-5-------------|-5-5-------------|
E|-----8-8-7-7-5-5-|-----8-8-7-7-5-5-|

G|-----------------|-----------------|---|
D|-5-5-------------|-5-5-------------|-7-|
A|-----8-8-7-7-5-5-|-----8-8-7-7-5-5-|---|
E|-----------------|-----------------|---|

Outro
G|---------------------5--9--|
D|-7-7--5-5------4--7--------|
A|------------5--------------|
E|---------------------------|

G|---------------------5--9--7--5--------------|
D|-7-7--5-5------4--7--------------7--5--------|
A|------------5--------------------------8---5-|
E|---------------------------------------------|

Verse x2
Horn Break x2
Chorus
Verse
Horn Break x2
Chorus
Verse x2
Outro

_________________
Shabba.
Back to top
View user's profile Send private message
Display posts from previous:   
Post new topic   Reply to topic    ShortScale Forum Index -> Playing Technique, Theory, Recording Tips, and Talk All times are GMT
Page 1 of 1

 
Jump to:  
You cannot post new topics in this forum
You cannot reply to topics in this forum
You cannot edit your posts in this forum
You cannot delete your posts in this forum
You cannot vote in polls in this forum


Powered by phpBB 2001, 2002 phpBB Group

Anti Bot Question MOD - phpBB MOD against Spam Bots
Blocked registrations / posts: 594778 / 0

Guitars at Musician's Friend

Help support this site by clicking the above link!