ShortScale Forum Index www.shortscale.org
Head 'n Neck Above
 
 FAQFAQ   SearchSearch   MemberlistMemberlist   UsergroupsUsergroups      RegisterRegister 
 ProfileProfile   Log in to check your private messagesLog in to check your private messages   Log inLog in 
UploaderUploader   ShortScale WikiBuilder

Need some tab help

 
Post new topic   Reply to topic    ShortScale Forum Index -> Musical Miscellany
View previous topic :: View next topic  
Author Message
endsjustifymeans
Grown Up Punk


Joined: 10 Feb 2009
Posts: 19442
Location: Ball So Hard University

PostPosted: Thu Jun 24, 2010 2:04 pm    Post subject: Need some tab help Reply with quote

Saccarine Trust - I am right


Link


Can any tab this out for me?
_________________
dots wrote:
society is crumbling because of asshoels like ends

brainfur wrote:
I'm having difficulty reconciling my desire to smash the state & kill all white people with my desire for a new telecaster
Back to top
View user's profile Send private message
Doog
can i get uhhh


Joined: 24 Apr 2006
Posts: 19672
Location: London

PostPosted: Thu Jun 24, 2010 2:37 pm    Post subject: Reply with quote

Will have a bash..
_________________
musics
Back to top
View user's profile Send private message
endsjustifymeans
Grown Up Punk


Joined: 10 Feb 2009
Posts: 19442
Location: Ball So Hard University

PostPosted: Thu Jun 24, 2010 2:43 pm    Post subject: Reply with quote

Doog wrote:
Will have a bash..


will owe you big time. I'm such a talentless hack...
_________________
dots wrote:
society is crumbling because of asshoels like ends

brainfur wrote:
I'm having difficulty reconciling my desire to smash the state & kill all white people with my desire for a new telecaster
Back to top
View user's profile Send private message
Doog
can i get uhhh


Joined: 24 Apr 2006
Posts: 19672
Location: London

PostPosted: Thu Jun 24, 2010 2:46 pm    Post subject: Reply with quote

Can you play major barre chords like:



..? Because it's a whooooooooole bunch of those.
_________________
musics
Back to top
View user's profile Send private message
endsjustifymeans
Grown Up Punk


Joined: 10 Feb 2009
Posts: 19442
Location: Ball So Hard University

PostPosted: Thu Jun 24, 2010 2:47 pm    Post subject: Reply with quote

I got it covered.
_________________
dots wrote:
society is crumbling because of asshoels like ends

brainfur wrote:
I'm having difficulty reconciling my desire to smash the state & kill all white people with my desire for a new telecaster
Back to top
View user's profile Send private message
Doog
can i get uhhh


Joined: 24 Apr 2006
Posts: 19672
Location: London

PostPosted: Thu Jun 24, 2010 2:57 pm    Post subject: Reply with quote

VERY START: partially muted Emaj

INTRO: Fmaj ...... Emaj Emaj

VERSE: G#maj G#maj F#maj G#maj

CHORUS PART ONE
-------------------
-13----------11--
-13----------11--
-13----------11--
-11-lots-----9-- lots-
------------------
G#maj F#maj


CHORUS PART TWO
Fmaj........... Emaj... Emaj but at 12th fret

OUTRO:
Emaj - Gmaj - Bmaj Cmaj Bmaj Cmaj F#maj Gmaj Bmaj

Sorry it's not actually tab, it's a bit laborious to do chord after chord that way.
_________________
musics


Last edited by Doog on Thu Jun 24, 2010 2:59 pm; edited 1 time in total
Back to top
View user's profile Send private message
endsjustifymeans
Grown Up Punk


Joined: 10 Feb 2009
Posts: 19442
Location: Ball So Hard University

PostPosted: Thu Jun 24, 2010 2:59 pm    Post subject: Reply with quote

awessssssssssssssssome! thanks!
_________________
dots wrote:
society is crumbling because of asshoels like ends

brainfur wrote:
I'm having difficulty reconciling my desire to smash the state & kill all white people with my desire for a new telecaster
Back to top
View user's profile Send private message
Reece
.
.


Joined: 14 Jan 2008
Posts: 10347
Location: Kent, UK

PostPosted: Thu Jun 24, 2010 3:05 pm    Post subject: Reply with quote

Aw bollocks, I should have refreshed this thread while I was doing it.

Well here was mine anyway.

Code:
Intro
==========
e|-----x--x--x--x--x--x--x--
b|-----x--x--x--x--x--x--x--
g|-----x--x--x--x--x--x--x--
d|-----x--x--x--x--x--x--x--
a|-----x--x--x--x--x--x--x--
E|--0--x--x--x--x--x--x--x--

e|--------------------------------------------------
b|--------------------------------------------------
g|--10-10-10-10-10-10-10-10-10-10-10-10-10-10-10-10-
d|--10-10-10-10-10-10-10-10-10-10-10-10-10-10-10-10-
a|--8--8--8--8--8--8--8--8--8--8--8--8--8--8--8--8--
E|--------------------------------------------------  x 3

e|---------------------------
b|---------------------------
g|--9-9-9-9-9------9-9-9-9-9-
d|--9-9-9-9-9------9-9-9-9-9-
a|--7-7-7-7-7------7-7-7-7-7-
E|---------------------------

Then back to the first chord for one bar and then the 7-9-9 part again.

Verse
=========
e|--------------------------------------------------
b|--------------------------------------------------
g|--13-13-13-13-13-13-13-13-13-13-13-13-13-13-13-13-
d|--13-13-13-13-13-13-13-13-13-13-13-13-13-13-13-13-
a|--11-11-11-11-11-11-11-11-11-11-11-11-11-11-11-11-
E|-------------------------------------------------- x 2

e|--------------------------------------------------
b|--------------------------------------------------
g|--11-11-11-11-11-11-11-11-11-11-11-11-11-11-11-11-
d|--11-11-11-11-11-11-11-11-11-11-11-11-11-11-11-11-
a|--9--9--9--9--9--9--9--9--9--9--9--9--9--9--9--9--
E|--------------------------------------------------

Then that first chord for one more bar and start again.

Chorus
==========
e|--------------------------------------------------
b|--------------------------------------------------
g|--13-13-13-13-13-13-13-13-13-13-13-13-13-13-13-13-
d|--13-13-13-13-13-13-13-13-13-13-13-13-13-13-13-13-
a|--11-11-11-11-11-11-11-11-11-11-11-11-11-11-11-11-
E|--------------------------------------------------

e|--------------------------------------------------
b|--------------------------------------------------
g|--11-11-11-11-11-11-11-11-11-11-11-11-11-11-11-11-
d|--11-11-11-11-11-11-11-11-11-11-11-11-11-11-11-11-
a|--9--9--9--9--9--9--9--9--9--9--9--9--9--9--9--9--
E|--------------------------------------------------

Do that twice.

Post-chorus
==========
e|--------------------------------------------------
b|--------------------------------------------------
g|--10-10-10-10-10-10-10-10-10-10-10-10-10-10-10-10-
d|--10-10-10-10-10-10-10-10-10-10-10-10-10-10-10-10-
a|--8--8--8--8--8--8--8--8--8--8--8--8--8--8--8--8--
E|--------------------------------------------------

e|---------------------------
b|---------------------------
g|--9-9-9-9-9------9-9-9-9-9-
d|--9-9-9-9-9------9-9-9-9-9-
a|--7-7-7-7-7------7-7-7-7-7-
E|---------------------------

Twice.

Ending
========
e|---------------------------
b|---------------------------
g|--9--10--9--10----------9--
d|--9--10--9--10--10--11--9--
a|--7--8---7--8---10--11--7--
E|----------------8---9------


By the way, did you need to tune higher doog?

I had to go about 20 cents higher than standard otherwise it sounded horrendous.
Back to top
View user's profile Send private message
endsjustifymeans
Grown Up Punk


Joined: 10 Feb 2009
Posts: 19442
Location: Ball So Hard University

PostPosted: Thu Jun 24, 2010 3:09 pm    Post subject: Reply with quote

sweeeeeeeeeet... powerchords, my favorite.

I'll try both, thanks guys.
_________________
dots wrote:
society is crumbling because of asshoels like ends

brainfur wrote:
I'm having difficulty reconciling my desire to smash the state & kill all white people with my desire for a new telecaster
Back to top
View user's profile Send private message
Doog
can i get uhhh


Joined: 24 Apr 2006
Posts: 19672
Location: London

PostPosted: Thu Jun 24, 2010 3:12 pm    Post subject: Reply with quote

Reece wrote:


By the way, did you need to tune higher doog?

I had to go about 20 cents higher than standard otherwise it sounded horrendous.


Yeahyeah, totally. Someone should have told the bass player that too.
_________________
musics
Back to top
View user's profile Send private message
endsjustifymeans
Grown Up Punk


Joined: 10 Feb 2009
Posts: 19442
Location: Ball So Hard University

PostPosted: Thu Jun 24, 2010 3:20 pm    Post subject: Reply with quote

so tune sharp as well... got it.
_________________
dots wrote:
society is crumbling because of asshoels like ends

brainfur wrote:
I'm having difficulty reconciling my desire to smash the state & kill all white people with my desire for a new telecaster
Back to top
View user's profile Send private message
Display posts from previous:   
Post new topic   Reply to topic    ShortScale Forum Index -> Musical Miscellany All times are GMT
Page 1 of 1

 
Jump to:  
You cannot post new topics in this forum
You cannot reply to topics in this forum
You cannot edit your posts in this forum
You cannot delete your posts in this forum
You cannot vote in polls in this forum


Powered by phpBB 2001, 2002 phpBB Group

Anti Bot Question MOD - phpBB MOD against Spam Bots
Blocked registrations / posts: 636009 / 0

Guitars at Musician's Friend

Help support this site by clicking the above link!