ShortScale Forum Index www.shortscale.org
Head 'n Neck Above
 
 FAQFAQ   SearchSearch   MemberlistMemberlist   UsergroupsUsergroups   RegisterRegister 
 ProfileProfile   Log in to check your private messagesLog in to check your private messages   Log inLog in 
UploaderUploader   ShortScale WikiBuilder

3 repeating basslines that make good practice runs

 
Post new topic   Reply to topic    ShortScale Forum Index -> Playing Technique, Theory, Recording Tips, and Talk
View previous topic :: View next topic  
Author Message
James
Nutmeg


Joined: 13 Jul 2006
Posts: 10645
Location: Boxingham Palace

PostPosted: Mon Nov 25, 2013 10:09 pm    Post subject: 3 repeating basslines that make good practice runs Reply with quote

None of these are particularly difficult, but they're all quite nice for practising intonation on a fretless or just using one finger per fret for a chromatic phrase.

Tom Waits - Step Right Up
Code:
G--------------------------|------------------------|
D--(8)---------------6-7-8-|------------11--10-9-8--|
A---------3-4-5---8--------|----3-4-5---------------|
E------6-------------------|-6----------------------|


Link


Soul Coughing - Bus To Beelzebub
Code:
G---------------------|
D---------------------|
A----7-6--9-8---5-6-7-|
E--8------------------|


Link


Stevie Wonder - I Wish
Code:
G--------------------------------------|
D----------------------4-6-8-6---------|
A--6----------3-4-5-6-----------3-4-5--|
E----2-4-6-4---------------------------|


Link

_________________
Shabba.
Back to top
View user's profile Send private message
Display posts from previous:   
Post new topic   Reply to topic    ShortScale Forum Index -> Playing Technique, Theory, Recording Tips, and Talk All times are GMT
Page 1 of 1

 
Jump to:  
You cannot post new topics in this forum
You cannot reply to topics in this forum
You cannot edit your posts in this forum
You cannot delete your posts in this forum
You cannot vote in polls in this forum


Powered by phpBB 2001, 2002 phpBB Group

Anti Bot Question MOD - phpBB MOD against Spam Bots
Blocked registrations / posts: 602589 / 0

Guitars at Musician's Friend

Help support this site by clicking the above link!